All Electric Guitar.com
                       Your online resource for electric guitars

 

Guitar Tab Mission Impossible 

Introduction (palm muted)
E|-------------------------------------------------|
B|-------------------------------------------------|
G|-------------------------------------------------|
D|-------------------------------------------------|
A|-------------------------------------------------|
E|--3--3--6-8---3--3--1-2-3--5--6-8---3--3--1-2-3--|
Mission Impossible Main Theme (not palm muted)
E|-------------------------------------------------|
B|-------------------------------------------------|
G|-------------------------------------------------|
D|--5--5--8-10--5--5--3-4-5--5--8-10--5--5--3-4-5--|
A|--5--5--8-10--5--5--3-4-5--5--8-10--5--5--3-4-5--|
E|--3--3--6-8---3--3--1-2-3--5--6-8---3--3--1-2-3--|
Lead guitar should keep on playing the theme and 
guitar 2 should pick up this easy solo
Guitar Solo
E|--6p3---------6p3-------6p3----------------------|
B|------3-----------2------------1-----1-----------|
G|-----------------------------------3-------------|
D|-------------------------------------------------|
A|-------------------------------------------------|
E|-------------------------------------------------|
 
E|------3-----------2---------1------0-------------|
B|-------------------------------------4-----------|
G|--3p0---------3p0-------3p0----------------------|
D|-------------------------------------------------|
A|-------------------------------------------------|
E|-------------------------------------------------|
Chorus
Play the chorus with rhythm
E|------------------------------------|
B|------------------------------------|
G|------------------------------------|
D|--55-5-5-55-5-7-1055-5-5-55-5-3-4-5-|
A|--55-5-5-55-5-7-1055-5-5-55-5-3-4-5-|
E|--33-3-3-33-3-5-8-33-3-3-33-3-1-2-3-|

More tabs

 

 

Get Special Offers And Have Incredible Learning Tips Sent To Your Email. 

You'll Also Be First To Hear About The Latest Models. Just Fill In Your Details Below

First Name:

Last Name:

Email:

We respect your privacy and promise that we will never share or rent your details to anyone!

Free Electric Guitar Lessons

Free Electric Guitar Lessons

Click Here For More info.